Welkom op het GitaarNet.
+ Reageren op discussie
Weergegeven resultaten: 1 t/m 7 van 7
  1. #1

    Standaard When the lady Smiles G.E. Tab

    Wie kan mij helpen aan de juiste tab + intro van het nummer ''when the lady smiles'' van de Golden Earrings?

    Op google staat wel het e.e.a. maar vooral het intro daarbij klopt niet.

  2. #2
    Senior Member
    Geregistreerd
    26 juni 2006
    Locatie
    rotjeknor
    Berichten
    3.641
    mijn gitaarnet lessen |≈▲Ø| of kom eens langs voor een proefles (of gewoon voor de gezelligheid

  3. #3

    Standaard

    Sorry

    Niemand?

  4. #4
    Senior Member
    Geregistreerd
    8 januari 2007
    Locatie
    Driehuis
    Berichten
    1.061

    Standaard

    He die spelen wij ook, ik heb ergens de tabs vandaan zal even zoeken.

    EDIT: kan het niet vinden. In ieder geval speel ik het zo, chorus aan en dan het volgende

    e|---0--0--0--
    b|---0--0--0--
    g|--11--9--5--
    d|---9--7--3--
    a|------------
    e|------------

    de open b en e zijn belangrijk. Zocht je alleen dit stukje of ook de riffs die erna komen?

    2e EDIT: deze is volgens mij behoorlijk correct. Het valt me op dat ook george k. kleine variaties heeft op de manier hoe hij het intro speelt.
    http://www.ultimate-guitar.com/tabs/...smiles_tab.htm
    Laatst gewijzigd door Meneer I.; 13 maart 2009 om 20:26
    Greetz, Iwan
    www.vanbuitenband.nl Allround Coverband

  5. #5

    Standaard

    Bedankt, maar ik zoek het Tokkelgedeelte na het intro. Waar de zang begint zeg maar.

    Zal mooi zijn als je die tab voor me kunt opspeuren.

  6. #6
    Junior Member
    Geregistreerd
    1 april 2007
    Locatie
    Hoek (ZVl)
    Berichten
    25

    Standaard

    e |- - - - - - - - - - - - - -|- - - - - - - - - - - - - - - - - - - - - -
    B |- - - - - 8 - - - - - - - |- - - - - - - 8 - - - - - - - - - - - - -
    G |- - - 9 - - - 9 - 7 - 9 |- - 9 - 9 - - - 9 - 7 - 9 - 10 - 9-
    D |- 10 - - - - - - - - - - |-10 -10 - - - - - - - - - - - - - - - -
    A |- - - - - - - - - - - - - - |- - - - - - - - - - - - - - - - - - - - - -
    E |- - - - - - - - - - - - - - |- - - - - - - - - - - - - - - - - - - - - -


    Meestal schiet er niemand in de lach als ik dit speel... Dus zal het ongeveer wel kloppen..

    Oeps.. Ik weet best wel dat het in B gespeeld word.. Alles dus een 1/2 toontje lager spelen.
    Laatst gewijzigd door JanD; 16 maart 2009 om 07:58 Reden: Schrijffoutje..
    Een goed vacuum is niet niks!

  7. #7
    Senior Member
    Geregistreerd
    8 januari 2007
    Locatie
    Driehuis
    Berichten
    1.061

    Standaard


    e|----------------------|-----------------|
    b|---4-5-4-7-4-5-4--4-5-|-----------------|
    g|--4-----4--------6----|---3-4/6-4-3--3--|
    d|----------------------|--4-4--------6---|
    a|----------------------|-4---------------|
    e|----------------------|-----------------|


    Ik speel het zelf zo ongeveer.
    Greetz, Iwan
    www.vanbuitenband.nl Allround Coverband

 

 

Favorieten/bladwijzers

Favorieten/bladwijzers

Regels voor berichten

  • Je mag geen nieuwe discussies starten
  • Je mag niet reageren op berichten
  • Je mag geen bijlagen versturen
  • Je mag niet je berichten bewerken
  •  
Back to top